Sensitive to Bees Tablature

From Homestar Runner Wiki

Revision as of 18:47, 8 July 2013 by 76.204.28.149 (Talk)
(diff) ← Older revision | Current revision (diff) | Newer revision → (diff)
Jump to: navigation, search

Sensitive to Bees chord progression, as recorded on Strong Bad Sings and Other Type Hits.


//Standard Tuning, no capo

|-----------------------------------|
|-----------------------------------|
|------3-x-0-0-3-x-0-0-3-x-0-0-3-x--|
|--2-2-2-2-2-2-2-2-2-2-2-2-2-2-2-2--|
|--2-2-2-2-2-2-2-2-2-2-2-2-2-2-2-0--|
|-----------------------------------|

//The chords here are played entirely on the lowest four strings (Big E, A, D, and G).

A                     E
I'm very sensitive to birds

A                     E
I'm very sensitive to trees

A                     E
I'm very sensitive to all these things

         A                      E
But I'm especially sensitive to bees

//Repeat chord progression throughout the verse until...

You're the poet laureate of...
|-------------------------------------------------------------------|
|-------------------------------------------------------------------|
|--3-3-3-3-3-3-0-0-3-3-3-3-3-3-0-0-3-3-3-3-3-3-0-0-3-3-3-3-3-3-0-0--|
|--2-2-2-2-2-2-2-2-2-2-2-2-2-2-2-2-2-2-2-2-2-2-2-2-2-2-2-2-2-2-2-2--|
|--2-2-2-2-2-2-2-2-2-2-2-2-2-2-2-2-2-2-2-2-2-2-2-2-2-2-2-2-2-2-2-2--|
|--0-0-0-0-0-0-0-0-0-0-0-0-0-0-0-0-0-0-0-0-0-0-0-0-0-0-0-0-0-0-0-0--|

//The chord progression resumes and takes you to the outro.
//End on an E, and then play:

|----------------------|
|----------------------|
|----------1-1-0---1---|
|------2-2-------------|
|--2-2-----------------|
|----------------------|
Personal tools