Decomposing Pumpkins Tablature

From Homestar Runner Wiki

Revision as of 15:56, 28 August 2010 by FaceCrap (Talk | contribs)
(diff) ← Older revision | Current revision (diff) | Newer revision → (diff)
Jump to: navigation, search

Guitar tablature for Decomposing Pumpkins


Guitar (E A D G B e)
Bass (E A D G)

 Intro
  Q=150(?)

  N.C.
 4/4
  Gtr
||----------|---------|---------|---------|
||o---------|---------|---------|---------|
||----------|---------|---------|---------|
||------0---|-----0---|-----0---|-3-3-3-3-|
||o---4---4-|---4---4-|---4-----|---------|
||--2-------|-2-------|-2-------|---------|


|---------|---------|---------|----------||
|---------|---------|---------|---------o||
|---------|---------|---------|----------||
|-----0---|-----0---|-----0---|---3-3-3--||
|---4---4-|---4---4-|---4---4-|---------o||
|-2-------|-2-------|-2-------|----------||


   E5     F5  E5        F5  E5        F5 E5
||--------------|-------------|--------------|
||o-------------|-------------|--------------|
||--------------|-------------|--------------|
||--------------|-------------|--------------|
||o-2--2---3--2-|-2--2---3--2-|-2--2---3-2-2-|
||--0--0---1--0-|-0--0---1--0-|-0--0---1-0-0-|


  G5  F#5 F5  E5       E5        F5 E5             F5 E5    
|------------------||------------------|-----------------|
|-----------------o||o-----------------|-----------------|
|------------------||------------------|-----------------|
|------------------||------------------|-----------------|
|-5-5-4-4-3-3-2-2-o||o-2-2-2-2-2-3-3-2-|-2-2-2-2-2-3-3-2-|
|-3-3-2-2-1-1-0-0--||--0-0-0-0-0-1-1-0-|-0-0-0-0-0-1-1-0-|


            F5 E5   G5  F#5 F5  E5
|-----------------|------------------||
|-----------------|-----------------o||
|-----------------|------------------||
|-----------------|------------------||
|-2-2-2-2-2-3-2-2-|-5-5-4-4-3-3-2-2-o||
|-0-0-0-0-0-1-0-0-|-3-3-2-2-1-1-0-0--||


    D5  C#5 D5 C#5  B5         D5  C#5 D5 C#5
||---------------|-----------|--------------|
||o--------------|-----------|--------------|
||---------------|-----------|--------------|
||--7--7--6-7--6-|--4--------|-7--7--6-7--6-|
||o-5--5--4-5--4-|--2--------|-5--5--4-5--4-|
||---------------|-----------|--------------|


  B5         D5  C#5 D5 C#5 B5
|----------|--------------|-----------|
|----------|--------------|-----------|
|----------|--------------|-----------|
|--4-------|-7--7--6-7--6-|--4--------|
|--2-------|-5--5--4-5--4-|--2--------|
|----------|--------------|-----------|


          1.
  A5       G5       N.C.
|--------|--------|-----|-----|
|--------|--------|-----|-----|
|--------|--------|-----|-----|
|--------|--------|-----|-----|
|-7------|-5------|-----|-----|
|-5------|-3------|-----|-----|


|----|----|-----|-----|-----|------||
|----|----|-----|-----|-----|-----o||
|----|----|-----|-----|-----|------||
|----|----|-----|-----|-----|------||
|----|----|-----|-----|-----|-----o||
|----|----|-----|-----|-----|------||


 2.
  G5               E5
|-------|--------|-----------*|
|-------|--------|-----------*|
|-------|--------|-----------*|
|-------|--------|-----------*|
|-5-----|-(5)----|-2--2--2---*|
|-3-----|-(3)----|-0--0--0---*|

Personal tools